Skip to main content

NITW – Die Anywhere Else [TABS]

I’ve decided I want to play this song, so I started to make tabs in case I would forget (and hell it was a good decision). This tab will include vocals (yes, I tabbed vocals), bass, guitar and maybe drums (yes, I’m really gonna put drums into a tab).

Not saying it’s 100% correct.

Also, I didn’t bother with hammer-ons, pull-offs and other extra things like that. Put them wherever you feel it sounds good. Tabs should be just a reference and honestly this song is not very hard anyway (that’s probably why I didn’t even search for tabs in first place and made them myself. Thanks Tyler! Thanks again, Tyler!)

If I was not sure about vocals being correct, I’m double unsure about bass. There is also a problem with E standard tuning on acoustic – since I don’t want to write this in drop D (or even drop B) plus I don’t own a bass, there are some workarounds:

  • Second verse is tabbed one octave up. If you want this to sound like original song, it’s drop B and different tab, which I didn’t do (and probably won’t)
  • Second chorus has ONE effin’ note outside of standard E range. Therefore the note is marked with “o” in front of the fret number (which is 0), indicating that it should be played one octave lower. Why? In case you want to play it in drop D (like it should probably be). Just keep in mind that when playing in drop D, all E string’s frets in the tab are now higher by two.

Gotta say that I tabbed bass more easily thanks to THIS video. I’m still soon gonna check it with full song though.

You can also download the tab if you want.

So, let’s cut the sh… here we go:

VOCALS

[VERSE] 2x

e|-------------|-----------------|
B|-------------|---------------1-|
G|-------0-----|-----0-1-0-------|
D|-1-1-3---1-1-|-3-3-------3-1---|
A|-------------|-----------------|
E|-------------|-----------------|


[CHORUS-I]

e|---------------------|---------------------|
B|-3-3-3-3-4-----------|-3-3-3-3-4-----------|
G|-----------3-3-3-3-5-|-----------3-3-3-3-1-|
D|---------------------|---------------------|
A|---------------------|---------------------|
E|---------------------|---------------------|

e|---------------------|---------------------|
B|-3-3-3-3-4-----------|---------------------|
G|-----------3-3-3-3-5-|-1-0---1-0-----------|
D|---------------------|-----1-----0---0-----|
A|---------------------|-------------3---3---|
E|---------------------|---------------------|


[VERSE] 2x

e|-------------|-----------------|
B|-------------|---------------1-|
G|-------0-----|-----0-1-0-------|
D|-1-1-3---1-1-|-3-3-------3-1---|
A|-------------|-----------------|
E|-------------|-----------------|


[CHORUS-II]

e|---------------------|---------------------|
B|-3-3-3-3-4-----------|-3-3-3-3-4-----------|
G|-----------3-3-3-3-5-|-----------3-3-3-3-1-|
D|---------------------|---------------------|
A|---------------------|---------------------|
E|---------------------|---------------------|

e|---------------------|---------------------|
B|-3-3-3-3-4-----------|-----------3---------|
G|-----------3-3-3-3-5-|-1-0---1-0-----------|
D|---------------------|-----1---------------|
A|---------------------|---------------------|
E|---------------------|---------------------|


[THE DIFFERENT PART THAT I DON'T KNOW HOW IS CALLED]

e|-----------------|-----------------|
B|-----------------|-----------------|
G|-3-3-3-3-1-0-1-0-|-0-0-0-0---------|
D|-----------------|---------3-1-3-1-|
A|-----------------|-----------------|
E|-----------------|-----------------|

e|-----------------|-----------------|
B|-----------------|-1---------------|
G|-3-3-3-3-1-0-1---|---3-0-3-0---0---|
D|-----------------|-----------3-----|
A|-----------------|-----------------|
E|-----------------|-----------------|

e|-6-6-6-6-4-3-4-3-|-3-3-3-3-1---1---|-4-4-6-4-3-1---6-10-|
B|-----------------|-----------4-----|-------------4------|
G|-----------------|-----------------|--------------------|
D|-----------------|-----------------|--------------------|
A|-----------------|-----------------|--------------------|
E|-----------------|-----------------|--------------------|


[CHORUS-I]

e|---------------------|---------------------|
B|-3-3-3-3-4-----------|-3-3-3-3-4-----------|
G|-----------3-3-3-3-5-|-----------3-3-3-3-1-|
D|---------------------|---------------------|
A|---------------------|---------------------|
E|---------------------|---------------------|

e|---------------------|---------------------|
B|-3-3-3-3-4-----------|---------------------|
G|-----------3-3-3-3-5-|-1-0---1-0-----------|
D|---------------------|-----1-----0---0-----|
A|---------------------|-------------3---3---|
E|---------------------|---------------------|

BASS

[VERSE]

G|-------------------|-------------------|
D|-----0-1-1-0---1---|-----0-1-1-----1---|
A|-3-3-------------1-|-1-1-------------1-|
E|-------------4-----|-----------3-4-----|

G|-------------------|-------------------|
D|-----0-1-1-0---1---|-----0-1-1-----1-0-|
A|-3-3-------------1-|-1-1---------------|
E|-------------4-----|-----------3-4-----|


[CHORUS-I]

G|---------------------------|---------------------------|
D|---0-----1-----1-----------|---0-----1-----------------|
A|-1-----3-------------------|-1-----3-------1-----------|
E|-----3-----3-4---4-4-3-1-3-|-----3-----3-4---4-4-3-1-3-|

G|---------------------------|---------------------------|
D|---0-----1--------------o0-|----o0---------------------|
A|-1-----3-------------------|-1-------------------------|
E|-----3-----3-4-3-4-4-3-1---|---4-----------------------|


[VERSE] (one octave higher than the original)

G|-------------------|-------------------|
D|-----0-1-1-0---1-0-|-----0-1-1-0---1---|
A|-3-3---------------|-1-1-------------1-|
E|-------------4-----|-------------4-----|

G|-------------------|-------------------|
D|-----0-1-1-0---1---|-----0-1-1-----1-0-|
A|-3-3-------------1-|-1-1---------------|
E|-------------4-----|-----------3-4-----|


[CHORUS-II]

G|---------------------------|---------------------------|
D|---0-----1-----1-----------|---0-----1-----------------|
A|-1-----3-------------------|-1-----3-------1-----------|
E|-----3-----3-4---4-4-3-1-3-|-----3-----3-4---4-4-3-1-3-|

G|---------------------------|---------------------------|
D|---0-----1--------------o0-|----o0---------------------|
A|-1-----3-------------------|-1-------------------------|
E|-----3-----3-4-3-4-4-3-1---|---4-----------------------|


[THE DIFFERENT PART THAT I DON'T KNOW HOW IS CALLED]

G|-----------------0-0-0-|---------------3-----5-|
D|-----------1-1-1-------|---1-----3---1---1-0---|
A|-----1-1-1-------------|-------1---1-----------|
E|-4-4-------------------|-4---4-----------------|

G|-----------------|-----------------|-----------------|-----------------|
D|-----------------|-----------------|-1-1-1-1-1-1-1-1-|-----------------|
A|-----------------|-1-1-1-1-1-1-1-1-|-----------------|-----------------|
E|-4-4-4-4-4-4-4-4-|-----------------|-----------------|-3-3-3-3-3-3-3-3-|

G|-----------------|-3-3-3-3-3-3-3-3-|-----------------|-----------------|
D|-----------------|-----------------|-----------------|-1-0---1-0-------|
A|-----------------|-----------------|-----------------|-----------------|
E|-4-4-4-4-4-4-4-4-|-----------------|-4-4-4-4-4-4-4-4-|-----4-----4-----|


[CHORUS-I]

G|---------------------------|---------------------------|
D|---0-----1-----1-----------|---0-----1-----------------|
A|-1-----3-------------------|-1-----3-------1-----------|
E|-----3-----3-4---4-4-3-1-3-|-----3-----3-4---4-4-3-1-3-|

G|---------------------------|---------------------------|
D|---0-----1--------------o0-|----o0---------------------|
A|-1-----3-------------------|-1-------------------------|
E|-----3-----3-4-3-4-4-3-1---|---4-----------------------|

GUITAR

…coming soon…

DRUMS COMPUTER

…coming…some time…probably

Charwey

Howdy! You might have not known, but my name's Charwey. There's literally no need for introduction, since you will find out yourself. Have a great time on my blog-ish thingy!

Leave a Reply

Your email address will not be published. Required fields are marked *